  0
SECTION
  2
HEADER
  9
$ACADVER
  1
AC1015
  9
$ACADMAINTVER
 70
     6
  9
$DWGCODEPAGE
  3
ANSI_1254
  9
$INSBASE
 10
0.0
 20
0.0
 30
0.0
  9
$EXTMIN
 10
0.0
 20
0.0
 30
0.0
  9
$EXTMAX
 10
279.4
 20
215.9
 30
0.0
  9
$LIMMIN
 10
0.0
 20
0.0
  9
$LIMMAX
 10
279.4
 20
215.9
  9
$ORTHOMODE
 70
     0
  9
$REGENMODE
 70
     1
  9
$FILLMODE
 70
     1
  9
$QTEXTMODE
 70
     0
  9
$MIRRTEXT
 70
     1
  9
$LTSCALE
 40
1.0
  9
$ATTMODE
 70
     1
  9
$TEXTSIZE
 40
3.5
  9
$TRACEWID
 40
1.0
  9
$TEXTSTYLE
  7
Standard
  9
$CLAYER
  8
0
  9
$CELTYPE
  6
ByLayer
  9
$CECOLOR
 62
   256
  9
$CELTSCALE
 40
1.0
  9
$DISPSILH
 70
     0
  9
$DIMSCALE
 40
1.0
  9
$DIMASZ
 40
3.5
  9
$DIMEXO
 40
1.0
  9
$DIMDLI
 40
3.75
  9
$DIMRND
 40
0.0
  9
$DIMDLE
 40
0.0
  9
$DIMEXE
 40
1.0
  9
$DIMTP
 40
0.0
  9
$DIMTM
 40
0.0
  9
$DIMTXT
 40
3.5
  9
$DIMCEN
 40
2.5
  9
$DIMTSZ
 40
0.0
  9
$DIMTOL
 70
     0
  9
$DIMLIM
 70
     0
  9
$DIMTIH
 70
     1
  9
$DIMTOH
 70
     1
  9
$DIMSE1
 70
     0
  9
$DIMSE2
 70
     0
  9
$DIMTAD
 70
     1
  9
$DIMZIN
 70
     0
  9
$DIMBLK
  1

  9
$DIMASO
 70
     1
  9
$DIMSHO
 70
     1
  9
$DIMPOST
  1

  9
$DIMAPOST
  1

  9
$DIMALT
 70
     0
  9
$DIMALTD
 70
     3
  9
$DIMALTF
 40
0.0393700787
  9
$DIMLFAC
 40
1.0
  9
$DIMTOFL
 70
     1
  9
$DIMTVP
 40
0.0
  9
$DIMTIX
 70
     0
  9
$DIMSOXD
 70
     0
  9
$DIMSAH
 70
     0
  9
$DIMBLK1
  1

  9
$DIMBLK2
  1

  9
$DIMSTYLE
  2
ISO-25
  9
$DIMCLRD
 70
     0
  9
$DIMCLRE
 70
     0
  9
$DIMCLRT
 70
     0
  9
$DIMTFAC
 40
1.0
  9
$DIMGAP
 40
1.524
  9
$DIMJUST
 70
     0
  9
$DIMSD1
 70
     0
  9
$DIMSD2
 70
     0
  9
$DIMTOLJ
 70
     0
  9
$DIMTZIN
 70
     0
  9
$DIMALTZ
 70
     0
  9
$DIMALTTZ
 70
     0
  9
$DIMUPT
 70
     0
  9
$DIMDEC
 70
     2
  9
$DIMTDEC
 70
     2
  9
$DIMALTU
 70
     2
  9
$DIMALTTD
 70
     3
  9
$DIMTXSTY
  7
Standard
  9
$DIMAUNIT
 70
     0
  9
$DIMADEC
 70
     2
  9
$DIMALTRND
 40
0.0
  9
$DIMAZIN
 70
     0
  9
$DIMDSEP
 70
    44
  9
$DIMATFIT
 70
     3
  9
$DIMFRAC
 70
     0
  9
$DIMLDRBLK
  1

  9
$DIMLUNIT
 70
     2
  9
$DIMLWD
 70
    -2
  9
$DIMLWE
 70
    -2
  9
$DIMTMOVE
 70
     0
  9
$LUNITS
 70
     2
  9
$LUPREC
 70
     2
  9
$SKETCHINC
 40
1.0
  9
$FILLETRAD
 40
10.0
  9
$AUNITS
 70
     0
  9
$AUPREC
 70
     2
  9
$MENU
  1
.
  9
$ELEVATION
 40
0.0
  9
$PELEVATION
 40
0.0
  9
$THICKNESS
 40
0.0
  9
$LIMCHECK
 70
     0
  9
$CHAMFERA
 40
0.0
  9
$CHAMFERB
 40
0.0
  9
$CHAMFERC
 40
0.0
  9
$CHAMFERD
 40
0.0
  9
$SKPOLY
 70
     0
  9
$TDCREATE
 40
2460682.519552002
  9
$TDUCREATE
 40
2460682.394552002
  9
$TDUPDATE
 40
2460682.51955213
  9
$TDUUPDATE
 40
2460682.39455213
  9
$TDINDWG
 40
0.0000000116
  9
$TDUSRTIMER
 40
0.0000000116
  9
$USRTIMER
 70
     1
  9
$ANGBASE
 50
0.0
  9
$ANGDIR
 70
     0
  9
$PDMODE
 70
     0
  9
$PDSIZE
 40
-1.0
  9
$PLINEWID
 40
0.0
  9
$SPLFRAME
 70
     0
  9
$SPLINETYPE
 70
     6
  9
$SPLINESEGS
 70
     8
  9
$HANDSEED
  5
BF
  9
$SURFTAB1
 70
     6
  9
$SURFTAB2
 70
     6
  9
$SURFTYPE
 70
     6
  9
$SURFU
 70
     6
  9
$SURFV
 70
     6
  9
$UCSBASE
  2

  9
$UCSNAME
  2

  9
$UCSORG
 10
0.0
 20
0.0
 30
0.0
  9
$UCSXDIR
 10
1.0
 20
0.0
 30
0.0
  9
$UCSYDIR
 10
0.0
 20
1.0
 30
0.0
  9
$UCSORTHOREF
  2

  9
$UCSORTHOVIEW
 70
     0
  9
$UCSORGTOP
 10
0.0
 20
0.0
 30
0.0
  9
$UCSORGBOTTOM
 10
0.0
 20
0.0
 30
0.0
  9
$UCSORGLEFT
 10
0.0
 20
0.0
 30
0.0
  9
$UCSORGRIGHT
 10
0.0
 20
0.0
 30
0.0
  9
$UCSORGFRONT
 10
0.0
 20
0.0
 30
0.0
  9
$UCSORGBACK
 10
0.0
 20
0.0
 30
0.0
  9
$PUCSBASE
  2

  9
$PUCSNAME
  2

  9
$PUCSORG
 10
0.0
 20
0.0
 30
0.0
  9
$PUCSXDIR
 10
1.0
 20
0.0
 30
0.0
  9
$PUCSYDIR
 10
0.0
 20
1.0
 30
0.0
  9
$PUCSORTHOREF
  2

  9
$PUCSORTHOVIEW
 70
     0
  9
$PUCSORGTOP
 10
0.0
 20
0.0
 30
0.0
  9
$PUCSORGBOTTOM
 10
0.0
 20
0.0
 30
0.0
  9
$PUCSORGLEFT
 10
0.0
 20
0.0
 30
0.0
  9
$PUCSORGRIGHT
 10
0.0
 20
0.0
 30
0.0
  9
$PUCSORGFRONT
 10
0.0
 20
0.0
 30
0.0
  9
$PUCSORGBACK
 10
0.0
 20
0.0
 30
0.0
  9
$USERI1
 70
     0
  9
$USERI2
 70
     0
  9
$USERI3
 70
     0
  9
$USERI4
 70
     0
  9
$USERI5
 70
     0
  9
$USERR1
 40
0.0
  9
$USERR2
 40
0.0
  9
$USERR3
 40
0.0
  9
$USERR4
 40
0.0
  9
$USERR5
 40
0.0
  9
$WORLDVIEW
 70
     1
  9
$SHADEDGE
 70
     3
  9
$SHADEDIF
 70
    70
  9
$TILEMODE
 70
     1
  9
$MAXACTVP
 70
    64
  9
$PINSBASE
 10
0.0
 20
0.0
 30
0.0
  9
$PLIMCHECK
 70
     0
  9
$PEXTMIN
 10
1.0000000000E+20
 20
1.0000000000E+20
 30
1.0000000000E+20
  9
$PEXTMAX
 10
-1.0000000000E+20
 20
-1.0000000000E+20
 30
-1.0000000000E+20
  9
$PLIMMIN
 10
0.0
 20
0.0
  9
$PLIMMAX
 10
420.0
 20
297.0
  9
$UNITMODE
 70
     0
  9
$VISRETAIN
 70
     1
  9
$PLINEGEN
 70
     0
  9
$PSLTSCALE
 70
     1
  9
$TREEDEPTH
 70
  3020
  9
$CMLSTYLE
  2
Standard
  9
$CMLJUST
 70
     0
  9
$CMLSCALE
 40
20.0
  9
$PROXYGRAPHICS
 70
     1
  9
$MEASUREMENT
 70
     1
  9
$CELWEIGHT
370
    -1
  9
$ENDCAPS
280
     0
  9
$JOINSTYLE
280
     0
  9
$LWDISPLAY
290
     1
  9
$INSUNITS
 70
     4
  9
$HYPERLINKBASE
  1

  9
$STYLESHEET
  1

  9
$XEDIT
290
     1
  9
$CEPSNTYPE
380
     0
  9
$PSTYLEMODE
290
     1
  9
$FINGERPRINTGUID
  2
{5d929a18-e37c-480f-8691-2091981153f2}
  9
$VERSIONGUID
  2
{FAEB1C32-E019-11D5-929B-00C0DF256EC4}
  9
$EXTNAMES
290
     1
  9
$PSVPSCALE
 40
0.0
  9
$OLESTARTUP
290
     0
  0
ENDSEC
  0
SECTION
  2
CLASSES
  0
CLASS
  1
ACDBDICTIONARYWDFLT
  2
AcDbDictionaryWithDefault
  3
ObjectDBX Classes
 90
        0
280
     0
281
     0
  0
CLASS
  1
VISUALSTYLE
  2
AcDbVisualStyle
  3
ObjectDBX Classes
 90
     4095
280
     0
281
     0
  0
CLASS
  1
MATERIAL
  2
AcDbMaterial
  3
ObjectDBX Classes
 90
     1153
280
     0
281
     0
  0
CLASS
  1
SCALE
  2
AcDbScale
  3
ObjectDBX Classes
 90
     1153
280
     0
281
     0
  0
CLASS
  1
TABLESTYLE
  2
AcDbTableStyle
  3
ObjectDBX Classes
 90
     4095
280
     0
281
     0
  0
CLASS
  1
MLEADERSTYLE
  2
AcDbMLeaderStyle
  3
ACDB_MLEADERSTYLE_CLASS
 90
     4095
280
     0
281
     0
  0
CLASS
  1
SUN
  2
AcDbSun
  3
SCENEOE
 90
     1153
280
     0
281
     0
  0
CLASS
  1
ACDBPLACEHOLDER
  2
AcDbPlaceHolder
  3
ObjectDBX Classes
 90
        0
280
     0
281
     0
  0
CLASS
  1
LAYOUT
  2
AcDbLayout
  3
ObjectDBX Classes
 90
        0
280
     0
281
     0
  0
ENDSEC
  0
SECTION
  2
TABLES
  0
TABLE
  2
VPORT
  5
8
330
0
100
AcDbSymbolTable
 70
     1
  0
VPORT
  5
29
330
8
100
AcDbSymbolTableRecord
100
AcDbViewportTableRecord
  2
*Active
 70
     0
 10
0.0
 20
0.0
 11
1.0
 21
1.0
 12
139.7
 22
107.95
 13
0.0
 23
0.0
 14
10.0
 24
10.0
 15
10.0
 25
10.0
 16
0.0
 26
0.0
 36
1.0
 17
0.0
 27
0.0
 37
0.0
 40
215.9
 41
1.2941176471
 42
50.0
 43
0.0
 44
0.0
 50
0.0
 51
0.0
 71
     0
 72
  2000
 73
     1
 74
     3
 75
     0
 76
     0
 77
     0
 78
     0
281
     0
 65
     1
110
0.0
120
0.0
130
0.0
111
1.0
121
0.0
131
0.0
112
0.0
122
1.0
132
0.0
 79
     0
146
0.0
  0
ENDTAB
  0
TABLE
  2
LTYPE
  5
5
330
0
100
AcDbSymbolTable
 70
     6
  0
LTYPE
  5
14
330
5
100
AcDbSymbolTableRecord
100
AcDbLinetypeTableRecord
  2
ByBlock
 70
     0
  3

 72
    65
 73
     0
 40
0.0
  0
LTYPE
  5
15
330
5
100
AcDbSymbolTableRecord
100
AcDbLinetypeTableRecord
  2
ByLayer
 70
     0
  3

 72
    65
 73
     0
 40
0.0
  0
LTYPE
  5
16
330
5
100
AcDbSymbolTableRecord
100
AcDbLinetypeTableRecord
  2
Continuous
 70
     0
  3
Solid line
 72
    65
 73
     0
 40
0.0
  0
LTYPE
  5
6E
330
5
100
AcDbSymbolTableRecord
100
AcDbLinetypeTableRecord
  2
HIDDEN
 70
     0
  3
Hidden __ __ __ __ __ __ __ __ __ __ __ __ __ __
 72
    65
 73
     2
 40
1.905
 49
1.27
 74
     0
 49
-0.635
 74
     0
  0
LTYPE
  5
6F
330
5
100
AcDbSymbolTableRecord
100
AcDbLinetypeTableRecord
  2
PHANTOM
 70
     0
  3
Phantom ______  __  __  ______  __  __  ______
 72
    65
 73
     6
 40
12.7
 49
6.35
 74
     0
 49
-1.27
 74
     0
 49
1.27
 74
     0
 49
-1.27
 74
     0
 49
1.27
 74
     0
 49
-1.27
 74
     0
  0
LTYPE
  5
70
330
5
100
AcDbSymbolTableRecord
100
AcDbLinetypeTableRecord
  2
CENTER
 70
     0
  3
Center ____ _ ____ _ ____ _ ____ _ ____ _ ____
 72
    65
 73
     4
 40
10.16
 49
6.35
 74
     0
 49
-1.27
 74
     0
 49
1.27
 74
     0
 49
-1.27
 74
     0
  0
LTYPE
  5
71
330
5
100
AcDbSymbolTableRecord
100
AcDbLinetypeTableRecord
  2
CENTERX2
 70
     0
  3
Center (2x) ________  __  ________  __  _____
 72
    65
 73
     4
 40
20.32
 49
12.7
 74
     0
 49
-2.54
 74
     0
 49
2.54
 74
     0
 49
-2.54
 74
     0
  0
LTYPE
  5
72
330
5
100
AcDbSymbolTableRecord
100
AcDbLinetypeTableRecord
  2
DOT2
 70
     0
  3
Dot (.5x) ........................................
 72
    65
 73
     2
 40
0.635
 49
0.0
 74
     0
 49
-0.635
 74
     0
  0
ENDTAB
  0
TABLE
  2
LAYER
  5
2
330
0
100
AcDbSymbolTable
 70
    17
  0
LAYER
  5
10
330
2
100
AcDbSymbolTableRecord
100
AcDbLayerTableRecord
  2
0
 70
     0
 62
     7
  6
Continuous
370
    -3
390
F
  0
LAYER
  5
73
330
2
100
AcDbSymbolTableRecord
100
AcDbLayerTableRecord
  2
FORMAT
 70
     0
 62
     7
  6
Continuous
370
    -3
390
F
  0
LAYER
  5
74
330
2
100
AcDbSymbolTableRecord
100
AcDbLayerTableRecord
  2
YARDIMCI_GEOMETRI
 70
     0
 62
    -6
  6
Continuous
290
     0
370
    -3
390
F
  0
LAYER
  5
75
330
2
100
AcDbSymbolTableRecord
100
AcDbLayerTableRecord
  2
SAYFA_CERCEVESI
 70
     0
 62
     7
  6
Continuous
370
    25
390
F
  0
LAYER
  5
76
330
2
100
AcDbSymbolTableRecord
100
AcDbLayerTableRecord
  2
ANTET
 70
     0
 62
     7
  6
Continuous
370
    -3
390
F
  0
LAYER
  5
77
330
2
100
AcDbSymbolTableRecord
100
AcDbLayerTableRecord
  2
OLCU
 70
     0
 62
   150
  6
Continuous
370
    -3
390
F
  0
LAYER
  5
78
330
2
100
AcDbSymbolTableRecord
100
AcDbLayerTableRecord
  2
METIN
 70
     0
 62
    96
  6
Continuous
370
    -3
390
F
  0
LAYER
  5
79
330
2
100
AcDbSymbolTableRecord
100
AcDbLayerTableRecord
  2
BALON
 70
     0
 62
     5
  6
Continuous
370
    -3
390
F
  0
LAYER
  5
7A
330
2
100
AcDbSymbolTableRecord
100
AcDbLayerTableRecord
  2
VURGU
 70
     0
 62
     7
  6
Continuous
370
    -3
390
F
  0
LAYER
  5
7B
330
2
100
AcDbSymbolTableRecord
100
AcDbLayerTableRecord
  2
SILIK
 70
     0
 62
     7
  6
Continuous
370
    -3
390
F
  0
LAYER
  5
7C
330
2
100
AcDbSymbolTableRecord
100
AcDbLayerTableRecord
  2
MODEL
 70
     0
 62
     7
  6
Continuous
370
    -3
390
F
  0
LAYER
  5
7D
330
2
100
AcDbSymbolTableRecord
100
AcDbLayerTableRecord
  2
DETAYLANDıRMA
 70
     0
 62
   190
  6
Continuous
370
    -3
390
F
  0
LAYER
  5
7E
330
2
100
AcDbSymbolTableRecord
100
AcDbLayerTableRecord
  2
TOLERANS
 70
     0
 62
   230
  6
Continuous
370
    -3
390
F
  0
LAYER
  5
7F
330
2
100
AcDbSymbolTableRecord
100
AcDbLayerTableRecord
  2
MERKEZ_CIZGILERI
 70
     0
 62
    30
  6
Continuous
370
    -3
390
F
  0
LAYER
  5
80
330
2
100
AcDbSymbolTableRecord
100
AcDbLayerTableRecord
  2
KESIT-DETAY_CIZGILERI
 70
     0
 62
     7
  6
Continuous
370
    -3
390
F
  0
LAYER
  5
81
330
2
100
AcDbSymbolTableRecord
100
AcDbLayerTableRecord
  2
\U+041E\U+0421\U+0415\U+0412\U+042B\U+0415
 70
     0
 62
     7
  6
Continuous
370
    -3
390
F
  0
LAYER
  5
82
330
2
100
AcDbSymbolTableRecord
100
AcDbLayerTableRecord
  2
\U+0412\U+041E\U+0414\U+042F\U+041D\U+042B\U+0415_\U+0417\U+041D\U+0410\U+041A\U+0418
 70
     0
 62
    11
  6
Continuous
370
    -3
390
F
  0
ENDTAB
  0
TABLE
  2
STYLE
  5
3
330
0
100
AcDbSymbolTable
 70
     1
  0
STYLE
  5
11
330
3
100
AcDbSymbolTableRecord
100
AcDbTextStyleTableRecord
  2
Standard
 70
     0
 40
0.0
 41
1.0
 50
0.0
 71
     0
 42
3.5
  3
txt
  4

  0
ENDTAB
  0
TABLE
  2
VIEW
  5
6
330
0
100
AcDbSymbolTable
 70
     0
  0
ENDTAB
  0
TABLE
  2
UCS
  5
7
330
0
100
AcDbSymbolTable
 70
     0
  0
ENDTAB
  0
TABLE
  2
APPID
  5
9
330
0
100
AcDbSymbolTable
 70
     1
  0
APPID
  5
12
330
9
100
AcDbSymbolTableRecord
100
AcDbRegAppTableRecord
  2
ACAD
 70
     0
  0
ENDTAB
  0
TABLE
  2
DIMSTYLE
  5
A
330
0
100
AcDbSymbolTable
 70
     1
100
AcDbDimStyleTable
  0
DIMSTYLE
105
27
330
A
100
AcDbSymbolTableRecord
100
AcDbDimStyleTableRecord
  2
ISO-25
 70
     0
 41
2.5
 42
0.625
 43
3.75
 44
1.25
 73
     0
 74
     0
 77
     1
 78
     8
140
2.5
141
2.5
143
0.0393700787
147
0.625
171
     3
172
     1
178
     0
271
     2
272
     2
274
     3
278
    44
283
     0
284
     8
340
11
  0
ENDTAB
  0
TABLE
  2
BLOCK_RECORD
  5
1
330
0
100
AcDbSymbolTable
 70
     2
  0
BLOCK_RECORD
  5
1F
330
1
100
AcDbSymbolTableRecord
100
AcDbBlockTableRecord
  2
*Model_Space
340
22
  0
BLOCK_RECORD
  5
1B
330
1
100
AcDbSymbolTableRecord
100
AcDbBlockTableRecord
  2
*Paper_Space
340
1E
  0
BLOCK_RECORD
  5
23
330
1
100
AcDbSymbolTableRecord
100
AcDbBlockTableRecord
  2
*Paper_Space0
340
26
  0
BLOCK_RECORD
  5
A2
330
1
100
AcDbSymbolTableRecord
100
AcDbBlockTableRecord
  2
SW_CENTERMARKSYMBOL_0
340
0
102
{BLKREFS
331
AD
102
}
  0
ENDTAB
  0
ENDSEC
  0
SECTION
  2
BLOCKS
  0
BLOCK
  5
20
330
1F
100
AcDbEntity
  8
0
100
AcDbBlockBegin
  2
*Model_Space
 70
     0
 10
0.0
 20
0.0
 30
0.0
  3
*Model_Space
  1

  0
ENDBLK
  5
21
330
1F
100
AcDbEntity
  8
0
100
AcDbBlockEnd
  0
BLOCK
  5
1C
330
1B
100
AcDbEntity
 67
     1
  8
0
100
AcDbBlockBegin
  2
*Paper_Space
 70
     0
 10
0.0
 20
0.0
 30
0.0
  3
*Paper_Space
  1

  0
ENDBLK
  5
1D
330
1B
100
AcDbEntity
 67
     1
  8
0
100
AcDbBlockEnd
  0
BLOCK
  5
24
330
23
100
AcDbEntity
  8
0
100
AcDbBlockBegin
  2
*Paper_Space0
 70
     0
 10
0.0
 20
0.0
 30
0.0
  3
*Paper_Space0
  1

  0
ENDBLK
  5
25
330
23
100
AcDbEntity
  8
0
100
AcDbBlockEnd
  0
BLOCK
  5
A3
330
A2
100
AcDbEntity
  8
0
100
AcDbBlockBegin
  2
SW_CENTERMARKSYMBOL_0
 70
     0
 10
0.0
 20
0.0
 30
0.0
  3
SW_CENTERMARKSYMBOL_0
  1

  0
LINE
  5
A5
330
A2
100
AcDbEntity
  8
FORMAT
 62
     0
100
AcDbLine
 10
0.0
 20
0.0
 30
0.0
 11
0.0
 21
2.5
 31
0.0
  0
LINE
  5
A6
330
A2
100
AcDbEntity
  8
FORMAT
 62
     0
100
AcDbLine
 10
0.0
 20
0.0
 30
0.0
 11
-2.5
 21
0.0
 31
0.0
  0
LINE
  5
A7
330
A2
100
AcDbEntity
  8
FORMAT
 62
     0
100
AcDbLine
 10
0.0
 20
0.0
 30
0.0
 11
0.0
 21
-2.5
 31
0.0
  0
LINE
  5
A8
330
A2
100
AcDbEntity
  8
FORMAT
 62
     0
100
AcDbLine
 10
0.0
 20
0.0
 30
0.0
 11
2.5
 21
0.0
 31
0.0
  0
LINE
  5
A9
330
A2
100
AcDbEntity
  8
FORMAT
 62
     0
100
AcDbLine
 10
0.0
 20
5.0
 30
0.0
 11
0.0
 21
72.5
 31
0.0
  0
LINE
  5
AA
330
A2
100
AcDbEntity
  8
FORMAT
 62
     0
100
AcDbLine
 10
-5.0
 20
0.0
 30
0.0
 11
-72.5
 21
0.0
 31
0.0
  0
LINE
  5
AB
330
A2
100
AcDbEntity
  8
FORMAT
 62
     0
100
AcDbLine
 10
0.0
 20
-5.0
 30
0.0
 11
0.0
 21
-72.5
 31
0.0
  0
LINE
  5
AC
330
A2
100
AcDbEntity
  8
FORMAT
 62
     0
100
AcDbLine
 10
5.0
 20
0.0
 30
0.0
 11
72.5
 21
0.0
 31
0.0
  0
ENDBLK
  5
A4
330
A2
100
AcDbEntity
  8
0
100
AcDbBlockEnd
  0
ENDSEC
  0
SECTION
  2
ENTITIES
  0
LINE
  5
83
330
1F
100
AcDbEntity
  8
0
  6
Continuous
 62
     7
370
    25
100
AcDbLine
 10
147.1755634978
 20
289.1882869404
 30
0.0
 11
63.3074662668
 21
143.9244814022
 31
0.0
  0
LINE
  5
84
330
1F
100
AcDbEntity
  8
0
  6
Continuous
 62
     7
370
    25
100
AcDbLine
 10
203.3074662668
 20
106.4115944619
 30
0.0
 11
268.4191200276
 21
219.1882869404
 31
0.0
  0
LINE
  5
85
330
1F
100
AcDbEntity
  8
0
  6
Continuous
 62
     7
370
    25
100
AcDbLine
 10
63.3074662668
 20
143.9244814022
 30
0.0
 11
63.3074662668
 21
-23.8117130596
 31
0.0
  0
LINE
  5
86
330
1F
100
AcDbEntity
  8
0
  6
Continuous
 62
     7
370
    25
100
AcDbLine
 10
203.3074662668
 20
-23.8117130596
 30
0.0
 11
203.3074662668
 21
106.4115944619
 31
0.0
  0
LINE
  5
87
330
1F
100
AcDbEntity
  8
0
  6
Continuous
 62
     7
370
    25
100
AcDbLine
 10
207.7973417627
 20
254.1882869404
 30
0.0
 11
268.4191200276
 21
219.1882869404
 31
0.0
  0
LINE
  5
88
330
1F
100
AcDbEntity
  8
0
  6
Continuous
 62
     7
370
    25
100
AcDbLine
 10
147.1755634978
 20
289.1882869404
 30
0.0
 11
207.7973417627
 21
254.1882869404
 31
0.0
  0
LINE
  5
89
330
1F
100
AcDbEntity
  8
0
  6
Continuous
 62
     7
370
    25
100
AcDbLine
 10
203.3074662668
 20
106.4115944619
 30
0.0
 11
63.3074662668
 21
143.9244814022
 31
0.0
  0
LINE
  5
8A
330
1F
100
AcDbEntity
  8
0
  6
Continuous
 62
     7
370
    25
100
AcDbLine
 10
133.3074662668
 20
-23.8117130596
 30
0.0
 11
203.3074662668
 21
-23.8117130596
 31
0.0
  0
LINE
  5
8B
330
1F
100
AcDbEntity
  8
0
  6
Continuous
 62
     7
370
    25
100
AcDbLine
 10
63.3074662668
 20
-23.8117130596
 30
0.0
 11
133.3074662668
 21
-23.8117130596
 31
0.0
  0
LINE
  5
8C
330
1F
100
AcDbEntity
  8
0
  6
Continuous
 62
     7
370
    25
100
AcDbLine
 10
-184.5585193468
 20
254.1882869404
 30
0.0
 11
-184.5585193468
 21
125.1680379321
 31
0.0
  0
LINE
  5
8D
330
1F
100
AcDbEntity
  8
0
  6
Continuous
 62
     7
370
    25
100
AcDbLine
 10
-44.5585193468
 20
125.1680379321
 30
0.0
 11
-44.5585193468
 21
254.1882869404
 31
0.0
  0
LINE
  5
8E
330
1F
100
AcDbEntity
  8
0
  6
Continuous
 62
     7
370
    25
100
AcDbLine
 10
-184.5585193468
 20
125.1680379321
 30
0.0
 11
-184.5585193468
 21
-23.8117130596
 31
0.0
  0
LINE
  5
8F
330
1F
100
AcDbEntity
  8
0
  6
Continuous
 62
     7
370
    25
100
AcDbLine
 10
-44.5585193468
 20
-23.8117130596
 30
0.0
 11
-44.5585193468
 21
125.1680379321
 31
0.0
  0
LWPOLYLINE
  5
90
330
1F
100
AcDbEntity
  8
0
  6
Continuous
 62
     7
370
    25
100
AcDbPolyline
 90
      101
 70
   128
 43
0.0
 10
-184.5585193468
 20
254.1882869404
 10
-184.4203903368
 20
251.9906187568
 10
-184.0065484389
 20
249.8016237656
 10
-183.3186268979
 20
247.6299409299
 10
-182.3593406259
 20
245.4841408896
 10
-181.1324754875
 20
243.3726921372
 10
-179.642873359
 20
241.3039275964
 10
-177.8964130195
 20
239.2860117356
 10
-175.8999869499
 20
237.3269083468
 10
-173.661474132
 20
235.4343491161
 10
-171.1897089531
 20
233.6158031101
 10
-168.4944463412
 20
231.8784472992
 10
-165.5863232663
 20
230.2291382329
 10
-162.4768167619
 20
228.6743849806
 10
-159.1781986293
 20
227.2203234432
 10
-155.7034870073
 20
225.8726921372
 10
-152.0663949954
 20
224.6368095478
 10
-148.281276534
 20
223.5175531388
 10
-144.3630697564
 20
222.5193401041
 10
-140.3272380348
 20
221.6461099343
 10
-136.1897089531
 20
220.90130887
 10
-131.9668114484
 20
220.2878763009
 10
-127.6752113678
 20
219.8082331649
 10
-123.3318456963
 20
219.4642723944
 10
-118.9538557139
 20
219.2573514454
 10
-114.5585193468
 20
219.1882869404
 10
-110.1631829798
 20
219.2573514454
 10
-105.7851929973
 20
219.4642723944
 10
-101.4418273258
 20
219.8082331649
 10
-97.1502272453
 20
220.2878763009
 10
-92.9273297406
 20
220.90130887
 10
-88.7898006589
 20
221.6461099343
 10
-84.7539689373
 20
222.5193401041
 10
-80.8357621597
 20
223.5175531388
 10
-77.0506436983
 20
224.6368095478
 10
-73.4135516864
 20
225.8726921372
 10
-69.9388400644
 20
227.2203234432
 10
-66.6402219318
 20
228.6743849806
 10
-63.5307154273
 20
230.2291382329
 10
-60.6225923525
 20
231.8784472992
 10
-57.9273297406
 20
233.6158031101
 10
-55.4555645617
 20
235.4343491161
 10
-53.2170517438
 20
237.3269083468
 10
-51.2206256742
 20
239.2860117356
 10
-49.4741653347
 20
241.3039275964
 10
-47.9845632062
 20
243.3726921372
 10
-46.7576980678
 20
245.4841408896
 10
-45.7984117958
 20
247.6299409299
 10
-45.1104902548
 20
249.8016237656
 10
-44.6966483569
 20
251.9906187568
 10
-44.5585193468
 20
254.1882869404
 10
-44.6966483569
 20
256.3859551239
 10
-45.1104902548
 20
258.5749501151
 10
-45.7984117958
 20
260.7466329509
 10
-46.7576980678
 20
262.8924329911
 10
-47.9845632062
 20
265.0038817435
 10
-49.4741653347
 20
267.0726462843
 10
-51.2206256742
 20
269.0905621451
 10
-53.2170517438
 20
271.0496655339
 10
-55.4555645617
 20
272.9422247646
 10
-57.9273297406
 20
274.7607707706
 10
-60.6225923525
 20
276.4981265816
 10
-63.5307154273
 20
278.1474356479
 10
-66.6402219318
 20
279.7021889001
 10
-69.9388400644
 20
281.1562504375
 10
-73.4135516864
 20
282.5038817435
 10
-77.0506436983
 20
283.7397643329
 10
-80.8357621597
 20
284.8590207419
 10
-84.7539689373
 20
285.8572337767
 10
-88.7898006589
 20
286.7304639465
 10
-92.9273297406
 20
287.4752650107
 10
-97.1502272453
 20
288.0886975799
 10
-101.4418273258
 20
288.5683407159
 10
-105.7851929973
 20
288.9123014864
 10
-110.1631829798
 20
289.1192224354
 10
-114.5585193468
 20
289.1882869404
 10
-118.9538557139
 20
289.1192224354
 10
-123.3318456963
 20
288.9123014864
 10
-127.6752113678
 20
288.5683407159
 10
-131.9668114484
 20
288.0886975799
 10
-136.1897089531
 20
287.4752650107
 10
-140.3272380348
 20
286.7304639465
 10
-144.3630697564
 20
285.8572337767
 10
-148.281276534
 20
284.8590207419
 10
-152.0663949954
 20
283.7397643329
 10
-155.7034870073
 20
282.5038817435
 10
-159.1781986293
 20
281.1562504375
 10
-162.4768167619
 20
279.7021889001
 10
-165.5863232663
 20
278.1474356479
 10
-168.4944463412
 20
276.4981265816
 10
-171.1897089531
 20
274.7607707706
 10
-173.661474132
 20
272.9422247646
 10
-175.8999869499
 20
271.0496655339
 10
-177.8964130195
 20
269.0905621451
 10
-179.642873359
 20
267.0726462843
 10
-181.1324754875
 20
265.0038817435
 10
-182.3593406259
 20
262.8924329911
 10
-183.3186268979
 20
260.7466329509
 10
-184.0065484389
 20
258.5749501151
 10
-184.4203903368
 20
256.3859551239
 10
-184.5585193468
 20
254.1882869404
  0
ELLIPSE
  5
91
330
1F
100
AcDbEntity
  8
0
  6
Continuous
 62
     7
370
    25
100
AcDbEllipse
 10
-114.5585193468
 20
125.1680379321
 30
0.0
 11
70.0
 21
0.0
 31
0.0
210
0.0
220
0.0
230
1.0
 40
0.2679491924
 41
3.141592653589849
 42
6.283185307179586
  0
LWPOLYLINE
  5
92
330
1F
100
AcDbEntity
  8
0
  6
Continuous
 62
     7
370
    25
100
AcDbPolyline
 90
       92
 70
   128
 43
0.0
 10
-171.8585193468
 20
254.1882869404
 10
-171.7219890497
 20
256.1648832275
 10
-171.3130487873
 20
258.1320601333
 10
-170.6336473463
 20
260.0804431638
 10
-169.6870223839
 20
262.0007473866
 10
-168.4776849991
 20
263.8838216776
 10
-167.0113982354
 20
265.7206923303
 10
-165.2951496168
 20
267.5026058194
 10
-163.3371178496
 20
269.2210705158
 10
-161.146633847
 20
270.8678971526
 10
-158.7341362626
 20
272.4352378508
 10
-156.1111217462
 20
273.9156235183
 10
-153.2900901563
 20
275.3019994433
 10
-150.2844849934
 20
276.5877589131
 10
-147.1086293345
 20
277.7667746982
 10
-143.7776575784
 20
278.8334282516
 10
-140.3074433223
 20
279.7826364833
 10
-136.7145237174
 20
280.6098759839
 10
-133.0160206619
 20
281.3112045803
 10
-129.2295592071
 20
281.8832801224
 10
-125.3731835663
 20
282.3233764098
 10
-121.4652711255
 20
282.6293961833
 10
-117.5244448671
 20
282.7998811192
 10
-113.569484623
 20
282.8340187791
 10
-109.6192375797
 20
282.7316464817
 10
-105.6925284634
 20
282.4932520775
 10
-101.8080698312
 20
282.1199716244
 10
-97.9843728974
 20
281.6135839737
 10
-94.2396593193
 20
280.9765022933
 10
-90.5917743624
 20
280.2117625674
 10
-87.0581018598
 20
279.3230091292
 10
-83.65548137
 20
278.3144772934
 10
-80.4001279295
 20
277.1909731736
 10
-77.3075547796
 20
275.9578507785
 10
-74.39249944
 20
274.6209864979
 10
-71.6688534766
 20
273.186751099
 10
-69.149596303
 20
271.6619793664
 10
-66.8467333269
 20
270.053937532
 10
-64.7712387389
 20
268.3702886473
 10
-62.933003216
 20
266.6190560661
 10
-61.3407867877
 20
264.808585209
 10
-60.0021770902
 20
262.9475037942
 10
-58.9235532083
 20
261.0446807222
 10
-58.1100552762
 20
259.1091838114
 10
-57.5655599818
 20
257.1502365861
 10
-57.2926620933
 20
255.1771743218
 10
-57.2926620933
 20
253.1993995589
 10
-57.5655599818
 20
251.2263372946
 10
-58.1100552762
 20
249.2673900693
 10
-58.9235532083
 20
247.3318931585
 10
-60.0021770902
 20
245.4290700865
 10
-61.3407867877
 20
243.5679886717
 10
-62.933003216
 20
241.7575178146
 10
-64.7712387389
 20
240.0062852334
 10
-66.8467333269
 20
238.3226363487
 10
-69.1495963031
 20
236.7145945143
 10
-71.6688534766
 20
235.1898227818
 10
-74.39249944
 20
233.7555873828
 10
-77.3075547796
 20
232.4187231022
 10
-80.4001279295
 20
231.1856007071
 10
-83.65548137
 20
230.0620965873
 10
-87.0581018598
 20
229.0535647515
 10
-90.5917743624
 20
228.1648113133
 10
-94.2396593193
 20
227.4000715874
 10
-97.9843728974
 20
226.762989907
 10
-101.8080698312
 20
226.2566022564
 10
-105.6925284634
 20
225.8833218032
 10
-109.6192375797
 20
225.644927399
 10
-113.569484623
 20
225.5425551016
 10
-117.5244448671
 20
225.5766927616
 10
-121.4652711255
 20
225.7471776975
 10
-125.3731835663
 20
226.0531974709
 10
-129.2295592071
 20
226.4932937583
 10
-133.0160206619
 20
227.0653693005
 10
-136.7145237174
 20
227.7666978969
 10
-140.3074433223
 20
228.5939373974
 10
-143.7776575784
 20
229.5431456291
 10
-147.1086293345
 20
230.6097991825
 10
-150.2844849934
 20
231.7888149677
 10
-153.2900901563
 20
233.0745744374
 10
-156.1111217462
 20
234.4609503624
 10
-158.7341362626
 20
235.9413360299
 10
-161.146633847
 20
237.5086767282
 10
-163.3371178496
 20
239.1555033649
 10
-165.2951496168
 20
240.8739680613
 10
-167.0113982354
 20
242.6558815505
 10
-168.4776849991
 20
244.4927522031
 10
-169.6870223839
 20
246.3758264941
 10
-170.6336473463
 20
248.296130717
 10
-171.3130487873
 20
250.2445137474
 10
-171.7219890497
 20
252.2116906532
 10
-171.8585193468
 20
254.1882869404
  0
LINE
  5
93
330
1F
100
AcDbEntity
  8
0
  6
Continuous
 62
     7
370
    25
100
AcDbLine
 10
-184.5585193468
 20
-23.8117130596
 30
0.0
 11
-44.5585193468
 21
-23.8117130596
 31
0.0
  0
LINE
  5
94
330
1F
100
AcDbEntity
  8
0
  6
Continuous
 62
     7
370
    25
100
AcDbLine
 10
351.0974922981
 20
254.1882869404
 30
0.0
 11
351.0974922981
 21
125.1680379321
 31
0.0
  0
LINE
  5
95
330
1F
100
AcDbEntity
  8
0
  6
Continuous
 62
     7
370
    25
100
AcDbLine
 10
491.0974922981
 20
125.1680379321
 30
0.0
 11
491.0974922981
 21
254.1882869404
 31
0.0
  0
LINE
  5
96
330
1F
100
AcDbEntity
  8
0
  6
Continuous
 62
     7
370
    25
100
AcDbLine
 10
351.0974922981
 20
125.1680379321
 30
0.0
 11
351.0974922981
 21
-23.8117130596
 31
0.0
  0
LINE
  5
97
330
1F
100
AcDbEntity
  8
0
  6
Continuous
 62
     7
370
    25
100
AcDbLine
 10
491.0974922981
 20
-23.8117130596
 30
0.0
 11
491.0974922981
 21
125.1680379321
 31
0.0
  0
LWPOLYLINE
  5
98
330
1F
100
AcDbEntity
  8
0
  6
Continuous
 62
     7
370
    25
100
AcDbPolyline
 90
       51
 70
   128
 43
0.0
 10
351.0974922981
 20
254.1882869404
 10
351.2356213081
 20
256.3859551239
 10
351.6494632061
 20
258.5749501151
 10
352.3373847471
 20
260.7466329509
 10
353.2966710191
 20
262.8924329911
 10
354.5235361575
 20
265.0038817435
 10
356.0131382859
 20
267.0726462843
 10
357.7595986255
 20
269.0905621451
 10
359.7560246951
 20
271.0496655339
 10
361.994537513
 20
272.9422247646
 10
364.4663026919
 20
274.7607707706
 10
367.1615653038
 20
276.4981265816
 10
370.0696883786
 20
278.1474356479
 10
373.1791948831
 20
279.7021889001
 10
376.4778130157
 20
281.1562504375
 10
379.9525246377
 20
282.5038817435
 10
383.5896166496
 20
283.7397643329
 10
387.374735111
 20
284.8590207419
 10
391.2929418886
 20
285.8572337767
 10
395.3287736102
 20
286.7304639465
 10
399.4663026919
 20
287.4752650107
 10
403.6892001966
 20
288.0886975799
 10
407.9808002771
 20
288.5683407159
 10
412.3241659486
 20
288.9123014864
 10
416.7021559311
 20
289.1192224354
 10
421.0974922981
 20
289.1882869404
 10
425.4928286652
 20
289.1192224354
 10
429.8708186476
 20
288.9123014864
 10
434.2141843191
 20
288.5683407159
 10
438.5057843997
 20
288.0886975799
 10
442.7286819044
 20
287.4752650107
 10
446.8662109861
 20
286.7304639465
 10
450.9020427077
 20
285.8572337767
 10
454.8202494852
 20
284.8590207419
 10
458.6053679467
 20
283.7397643329
 10
462.2424599586
 20
282.5038817435
 10
465.7171715805
 20
281.1562504375
 10
469.0157897131
 20
279.7021889001
 10
472.1252962176
 20
278.1474356479
 10
475.0334192924
 20
276.4981265816
 10
477.7286819044
 20
274.7607707706
 10
480.2004470833
 20
272.9422247646
 10
482.4389599012
 20
271.0496655339
 10
484.4353859707
 20
269.0905621451
 10
486.1818463103
 20
267.0726462843
 10
487.6714484388
 20
265.0038817435
 10
488.8983135771
 20
262.8924329911
 10
489.8575998491
 20
260.7466329509
 10
490.5455213901
 20
258.5749501151
 10
490.9593632881
 20
256.3859551239
 10
491.0974922981
 20
254.1882869404
  0
ELLIPSE
  5
99
330
1F
100
AcDbEntity
  8
0
  6
Continuous
 62
     7
370
    25
100
AcDbEllipse
 10
421.0974922981
 20
125.1680379321
 30
0.0
 11
70.0
 21
0.0
 31
0.0
210
0.0
220
0.0
230
1.0
 40
0.2679491924
 41
1.570796326794897
 42
3.141592653589849
  0
ELLIPSE
  5
9A
330
1F
100
AcDbEntity
  8
0
  6
Continuous
 62
     7
370
    25
100
AcDbEllipse
 10
421.0974922981
 20
125.1680379321
 30
0.0
 11
70.0
 21
0.0
 31
0.0
210
0.0
220
0.0
230
1.0
 40
0.2679491924
 41
0.0
 42
1.570796326794901
  0
LINE
  5
9B
330
1F
100
AcDbEntity
  8
0
  6
Continuous
 62
     7
370
    25
100
AcDbLine
 10
351.0974922981
 20
-23.8117130596
 30
0.0
 11
491.0974922981
 21
-23.8117130596
 31
0.0
  0
LINE
  5
9C
330
1F
100
AcDbEntity
  8
0
  6
Continuous
 62
     7
370
    25
100
AcDbLine
 10
207.7973417627
 20
492.5770510992
 30
0.0
 11
133.3074662668
 21
492.5770510992
 31
0.0
  0
LINE
  5
9D
330
1F
100
AcDbEntity
  8
0
  6
Continuous
 62
     7
370
    25
100
AcDbLine
 10
133.3074662668
 20
352.5770510992
 30
0.0
 11
207.7973417627
 21
352.5770510992
 31
0.0
  0
CIRCLE
  5
9E
330
1F
100
AcDbEntity
  8
0
  6
Continuous
 62
     7
370
    25
100
AcDbCircle
 10
133.3074662668
 20
422.5770510992
 30
0.0
 40
70.0
  0
CIRCLE
  5
9F
330
1F
100
AcDbEntity
  8
0
  6
Continuous
 62
     7
370
    25
100
AcDbCircle
 10
133.3074662668
 20
422.5770510992
 30
0.0
 40
57.30000000000001
  0
LWPOLYLINE
  5
A0
330
1F
100
AcDbEntity
  8
0
  6
Continuous
 62
     7
370
    25
100
AcDbPolyline
 90
       52
 70
   128
 43
0.0
 10
207.7973417627
 20
492.5770510992
 10
211.6038147147
 20
492.4389220892
 10
215.3952652571
 20
492.0250801912
 10
219.1567302665
 20
491.3371586502
 10
222.8733649591
 20
490.3778723782
 10
226.5305014758
 20
489.1510072399
 10
230.1137067694
 20
487.6614051114
 10
233.6088395657
 20
485.9149447718
 10
237.0021061724
 20
483.9185187023
 10
240.2801149163
 20
481.6800058843
 10
243.4299289946
 20
479.2082407054
 10
246.43911753
 20
476.5129780935
 10
249.2958046302
 20
473.6048550187
 10
251.9887162563
 20
470.4953485142
 10
254.5072247164
 20
467.1967303816
 10
256.8413906082
 20
463.7220187597
 10
258.9820020453
 20
460.0849267477
 10
260.9206110124
 20
456.2998082863
 10
262.6495667054
 20
452.3816015087
 10
264.1620457261
 20
448.3457697871
 10
265.4520790109
 20
444.2082407054
 10
266.5145753878
 20
439.9853432007
 10
267.3453416688
 20
435.6937431202
 10
267.9410991991
 20
431.3503774487
 10
268.2994967959
 20
426.9723874662
 10
268.4191200276
 20
422.5770510992
 10
268.2994967959
 20
418.1817147321
 10
267.9410991991
 20
413.8037247497
 10
267.3453416688
 20
409.4603590782
 10
266.5145753878
 20
405.1687589976
 10
265.4520790109
 20
400.9458614929
 10
264.1620457261
 20
396.8083324113
 10
262.6495667054
 20
392.7725006896
 10
260.9206110124
 20
388.8542939121
 10
258.9820020453
 20
385.0691754507
 10
256.8413906082
 20
381.4320834387
 10
254.5072247164
 20
377.9573718168
 10
251.9887162563
 20
374.6587536842
 10
249.2958046302
 20
371.5492471797
 10
246.43911753
 20
368.6411241049
 10
243.4299289945
 20
365.9458614929
 10
240.2801149163
 20
363.474096314
 10
237.0021061724
 20
361.2355834961
 10
233.6088395657
 20
359.2391574266
 10
230.1137067694
 20
357.492697087
 10
226.5305014758
 20
356.0030949585
 10
222.8733649591
 20
354.7762298202
 10
219.1567302665
 20
353.8169435482
 10
215.3952652571
 20
353.1290220072
 10
211.6038147147
 20
352.7151801092
 10
207.7973417627
 20
352.5770510992
 10
207.7973417627
 20
352.5770510992
  0
LWPOLYLINE
  5
A1
330
1F
100
AcDbEntity
  8
0
  6
Continuous
 62
     7
370
    25
100
AcDbPolyline
 90
       25
 70
   128
 43
0.0
 10
173.2264702337
 20
463.6837795302
 10
171.2273189712
 20
461.3086219087
 10
169.0003182432
 20
458.3030167457
 10
166.9582030004
 20
455.1271610869
 10
165.1107048519
 20
451.7961893307
 10
163.4666279676
 20
448.3259750746
 10
162.0338071227
 20
444.7330554697
 10
160.8190703609
 20
441.0345524142
 10
159.8282064561
 20
437.2480909595
 10
159.0659373261
 20
433.3917153186
 10
158.5358955304
 20
429.4838028778
 10
158.2406069595
 20
425.5429766195
 10
158.1814787979
 20
421.5880163753
 10
158.3587928184
 20
417.637769332
 10
158.7717040387
 20
413.7110602157
 10
159.418244749
 20
409.8266015835
 10
160.2953338882
 20
406.0029046497
 10
161.3987917273
 20
402.2581910717
 10
162.7233597871
 20
398.6103061147
 10
164.2627258975
 20
395.0766336121
 10
166.0095542782
 20
391.6740131224
 10
167.9555204962
 20
388.4186596818
 10
170.0913511364
 20
385.326086532
 10
172.4068679932
 20
382.4110311923
 10
173.2264702337
 20
381.4703226682
  0
INSERT
  5
AD
330
1F
100
AcDbEntity
  8
FORMAT
 62
     7
100
AcDbBlockReference
  2
SW_CENTERMARKSYMBOL_0
 10
133.3074662668
 20
422.5770510992
 30
0.0
  0
LINE
  5
AE
330
1F
100
AcDbEntity
  8
0
  6
Continuous
 62
     7
370
    25
100
AcDbLine
 10
207.7973417627
 20
-104.0703686007
 30
0.0
 11
133.3074662668
 21
-104.0703686007
 31
0.0
  0
LINE
  5
AF
330
1F
100
AcDbEntity
  8
0
  6
Continuous
 62
     7
370
    25
100
AcDbLine
 10
133.3074662668
 20
-244.0703686007
 30
0.0
 11
207.7973417627
 21
-244.0703686007
 31
0.0
  0
LWPOLYLINE
  5
B0
330
1F
100
AcDbEntity
  8
0
  6
Continuous
 62
     7
370
    25
100
AcDbPolyline
 90
      101
 70
   128
 43
0.0
 10
207.7973417627
 20
-244.0703686007
 10
211.6038147147
 20
-243.9322395906
 10
215.3952652571
 20
-243.5183976927
 10
219.1567302665
 20
-242.8304761517
 10
222.8733649591
 20
-241.8711898797
 10
226.5305014758
 20
-240.6443247413
 10
230.1137067694
 20
-239.1547226128
 10
233.6088395657
 20
-237.4082622733
 10
237.0021061724
 20
-235.4118362037
 10
240.2801149163
 20
-233.1733233858
 10
243.4299289946
 20
-230.7015582069
 10
246.43911753
 20
-228.006295595
 10
249.2958046302
 20
-225.0981725202
 10
251.9887162563
 20
-221.9886660157
 10
254.5072247164
 20
-218.6900478831
 10
256.8413906082
 20
-215.2153362611
 10
258.9820020453
 20
-211.5782442492
 10
260.9206110124
 20
-207.7931257878
 10
262.6495667054
 20
-203.8749190102
 10
264.1620457261
 20
-199.8390872886
 10
265.4520790109
 20
-195.7015582069
 10
266.5145753878
 20
-191.4786607022
 10
267.3453416688
 20
-187.1870606217
 10
267.9410991991
 20
-182.8436949502
 10
268.2994967959
 20
-178.4657049677
 10
268.4191200276
 20
-174.0703686007
 10
268.2994967959
 20
-169.6750322336
 10
267.9410991991
 20
-165.2970422512
 10
267.3453416688
 20
-160.9536765797
 10
266.5145753878
 20
-156.6620764991
 10
265.4520790109
 20
-152.4391789944
 10
264.1620457261
 20
-148.3016499127
 10
262.6495667054
 20
-144.2658181911
 10
260.9206110124
 20
-140.3476114135
 10
258.9820020453
 20
-136.5624929521
 10
256.8413906082
 20
-132.9254009402
 10
254.5072247164
 20
-129.4506893183
 10
251.9887162563
 20
-126.1520711857
 10
249.2958046302
 20
-123.0425646812
 10
246.43911753
 20
-120.1344416064
 10
243.4299289945
 20
-117.4391789944
 10
240.2801149163
 20
-114.9674138155
 10
237.0021061724
 20
-112.7289009976
 10
233.6088395657
 20
-110.732474928
 10
230.1137067694
 20
-108.9860145885
 10
226.5305014758
 20
-107.49641246
 10
222.8733649591
 20
-106.2695473217
 10
219.1567302665
 20
-105.3102610497
 10
215.3952652571
 20
-104.6223395087
 10
211.6038147147
 20
-104.2084976107
 10
207.7973417627
 20
-104.0703686007
 10
203.9908688106
 20
-104.2084976107
 10
200.1994182683
 20
-104.6223395087
 10
196.4379532589
 20
-105.3102610497
 10
192.7213185663
 20
-106.2695473217
 10
189.0641820496
 20
-107.49641246
 10
185.480976756
 20
-108.9860145885
 10
181.9858439596
 20
-110.732474928
 10
178.592577353
 20
-112.7289009976
 10
175.3145686091
 20
-114.9674138155
 10
172.1647545308
 20
-117.4391789944
 10
169.1555659954
 20
-120.1344416064
 10
166.2988788952
 20
-123.0425646812
 10
163.6059672691
 20
-126.1520711857
 10
161.087458809
 20
-129.4506893183
 10
158.7532929171
 20
-132.9254009402
 10
156.61268148
 20
-136.5624929521
 10
154.674072513
 20
-140.3476114135
 10
152.94511682
 20
-144.2658181911
 10
151.4326377992
 20
-148.3016499127
 10
150.1426045144
 20
-152.4391789944
 10
149.0801081376
 20
-156.6620764991
 10
148.2493418566
 20
-160.9536765797
 10
147.6535843262
 20
-165.2970422512
 10
147.2951867295
 20
-169.6750322336
 10
147.1755634978
 20
-174.0703686007
 10
147.2951867295
 20
-178.4657049677
 10
147.6535843262
 20
-182.8436949502
 10
148.2493418566
 20
-187.1870606217
 10
149.0801081376
 20
-191.4786607022
 10
150.1426045144
 20
-195.7015582069
 10
151.4326377992
 20
-199.8390872886
 10
152.94511682
 20
-203.8749190102
 10
154.674072513
 20
-207.7931257878
 10
156.61268148
 20
-211.5782442492
 10
158.7532929171
 20
-215.2153362611
 10
161.087458809
 20
-218.6900478831
 10
163.6059672691
 20
-221.9886660157
 10
166.2988788952
 20
-225.0981725202
 10
169.1555659954
 20
-228.006295595
 10
172.1647545308
 20
-230.7015582069
 10
175.3145686091
 20
-233.1733233858
 10
178.592577353
 20
-235.4118362037
 10
181.9858439596
 20
-237.4082622733
 10
185.480976756
 20
-239.1547226128
 10
189.0641820496
 20
-240.6443247413
 10
192.7213185663
 20
-241.8711898797
 10
196.4379532589
 20
-242.8304761517
 10
200.1994182683
 20
-243.5183976927
 10
203.9908688106
 20
-243.9322395906
 10
207.7973417627
 20
-244.0703686007
  0
ARC
  5
B1
330
1F
100
AcDbEntity
  8
0
  6
Continuous
 62
     7
370
    25
100
AcDbCircle
 10
133.3074662668
 20
-174.0703686007
 30
0.0
 40
70.00000000000003
100
AcDbArc
 50
90.0
 51
180.0
  0
ARC
  5
B2
330
1F
100
AcDbEntity
  8
0
  6
Continuous
 62
     7
370
    25
100
AcDbCircle
 10
133.3074662668
 20
-174.0703686007
 30
0.0
 40
70.00000000000003
100
AcDbArc
 50
180.0
 51
270.0
  0
LWPOLYLINE
  5
B3
330
1F
100
AcDbEntity
  8
0
  6
Continuous
 62
     7
370
    25
100
AcDbPolyline
 90
       92
 70
   128
 43
0.0
 10
207.7973417627
 20
-231.3703686007
 10
204.3737765672
 20
-231.2338383035
 10
200.966526219
 20
-230.8248980412
 10
197.5918278176
 20
-230.1454966001
 10
194.2657633377
 20
-229.1988716377
 10
191.0041829913
 20
-227.9895342529
 10
187.8226296939
 20
-226.5232474892
 10
184.736264996
 20
-224.8069988706
 10
181.7597968308
 20
-222.8489671035
 10
178.9074094247
 20
-220.6584831008
 10
176.1926957026
 20
-218.2459855164
 10
173.6285925116
 20
-215.622971
 10
171.2273189712
 20
-212.8019394102
 10
169.0003182432
 20
-209.7963342472
 10
166.9582030004
 20
-206.6204785884
 10
165.1107048519
 20
-203.2895068322
 10
163.4666279676
 20
-199.8192925761
 10
162.0338071227
 20
-196.2263729712
 10
160.8190703609
 20
-192.5278699157
 10
159.8282064561
 20
-188.741408461
 10
159.0659373261
 20
-184.8850328201
 10
158.5358955304
 20
-180.9771203793
 10
158.2406069595
 20
-177.0362941209
 10
158.1814787979
 20
-173.0813338768
 10
158.3587928184
 20
-169.1310868335
 10
158.7717040387
 20
-165.2043777172
 10
159.418244749
 20
-161.319919085
 10
160.2953338882
 20
-157.4962221512
 10
161.3987917273
 20
-153.7515085731
 10
162.7233597871
 20
-150.1036236162
 10
164.2627258975
 20
-146.5699511136
 10
166.0095542782
 20
-143.1673306239
 10
167.9555204962
 20
-139.9119771833
 10
170.0913511364
 20
-136.8194040334
 10
172.4068679932
 20
-133.9043486938
 10
174.8910365742
 20
-131.1807027305
 10
177.5320186849
 20
-128.6614455569
 10
180.3172288428
 20
-126.3585825807
 10
183.2333942532
 20
-124.2830879927
 10
186.2666180598
 20
-122.4448524699
 10
189.4024455699
 20
-120.8526360415
 10
192.6259331373
 20
-119.514026344
 10
195.9217193758
 20
-118.4354024622
 10
199.2740983632
 20
-117.62190453
 10
202.6670944868
 20
-117.0774092356
 10
206.084538575
 20
-116.8045113471
 10
209.5101449504
 20
-116.8045113471
 10
212.9275890386
 20
-117.0774092356
 10
216.3205851622
 20
-117.62190453
 10
219.6729641495
 20
-118.4354024622
 10
222.9687503881
 20
-119.514026344
 10
226.1922379555
 20
-120.8526360415
 10
229.3280654656
 20
-122.4448524699
 10
232.3612892722
 20
-124.2830879927
 10
235.2774546825
 20
-126.3585825807
 10
238.0626648405
 20
-128.6614455569
 10
240.7036469512
 20
-131.1807027305
 10
243.1878155322
 20
-133.9043486938
 10
245.503332389
 20
-136.8194040334
 10
247.6391630292
 20
-139.9119771833
 10
249.5851292472
 20
-143.1673306239
 10
251.3319576278
 20
-146.5699511136
 10
252.8713237383
 20
-150.1036236162
 10
254.1958917981
 20
-153.7515085731
 10
255.2993496371
 20
-157.4962221512
 10
256.1764387764
 20
-161.319919085
 10
256.8229794866
 20
-165.2043777172
 10
257.235890707
 20
-169.1310868335
 10
257.4132047274
 20
-173.0813338768
 10
257.3540765659
 20
-177.0362941209
 10
257.058787995
 20
-180.9771203793
 10
256.5287461993
 20
-184.8850328201
 10
255.7664770693
 20
-188.741408461
 10
254.7756131645
 20
-192.5278699157
 10
253.5608764027
 20
-196.2263729712
 10
252.1280555578
 20
-199.8192925761
 10
250.4839786735
 20
-203.2895068322
 10
248.6364805249
 20
-206.6204785884
 10
246.5943652821
 20
-209.7963342472
 10
244.3673645542
 20
-212.8019394102
 10
241.9660910138
 20
-215.622971
 10
239.4019878228
 20
-218.2459855164
 10
236.6872741007
 20
-220.6584831008
 10
233.8348866945
 20
-222.8489671035
 10
230.8584185294
 20
-224.8069988706
 10
227.7720538315
 20
-226.5232474892
 10
224.5905005341
 20
-227.9895342529
 10
221.3289201877
 20
-229.1988716377
 10
218.0028557078
 20
-230.1454966001
 10
214.6281573064
 20
-230.8248980412
 10
211.2209069581
 20
-231.2338383035
 10
207.7973417627
 20
-231.3703686007
  0
ARC
  5
B4
330
1F
100
AcDbEntity
  8
0
  6
Continuous
 62
     7
370
    25
100
AcDbCircle
 10
133.3074662668
 20
-174.0703686007
 30
0.0
 40
57.30000000000003
100
AcDbArc
 50
314.1601837658
 51
45.8398162342
  0
LINE
  5
B5
330
1F
100
AcDbEntity
  8
0
  6
Continuous
 62
     7
370
    25
100
AcDbLine
 10
329.5284362986
 20
-208.6032450948
 30
0.0
 11
329.5284362986
 21
-341.0809162373
 31
0.0
  0
LINE
  5
B6
330
1F
100
AcDbEntity
  8
0
  6
Continuous
 62
     7
370
    25
100
AcDbLine
 10
469.5284362986
 20
-341.0809162373
 30
0.0
 11
469.5284362986
 21
-230.2624937213
 31
0.0
  0
LINE
  5
B7
330
1F
100
AcDbEntity
  8
0
  6
Continuous
 62
     7
370
    25
100
AcDbLine
 10
386.9405760377
 20
-58.355311803
 30
0.0
 11
330.3510208156
 21
-204.2090082073
 31
0.0
  0
LINE
  5
B8
330
1F
100
AcDbEntity
  8
0
  6
Continuous
 62
     7
370
    25
100
AcDbLine
 10
469.5284362986
 20
-232.5366045194
 30
0.0
 11
517.4608887452
 21
-108.9956906597
 31
0.0
  0
LWPOLYLINE
  5
B9
330
1F
100
AcDbEntity
  8
0
  6
Continuous
 62
     7
370
    25
100
AcDbPolyline
 90
      101
 70
   128
 43
0.0
 10
350.0309616156
 20
-312.5066323235
 10
353.236605726
 20
-310.7688230135
 10
356.6249425429
 20
-309.1506416872
 10
360.182599849
 20
-307.658474567
 10
363.8955371961
 20
-306.2982105548
 10
367.7491013168
 20
-305.0752179912
 10
371.7280839542
 20
-303.9943234691
 10
375.8167818814
 20
-303.0597927855
 10
379.9990588759
 20
-302.2753141059
 10
384.2584094009
 20
-301.6439834093
 10
388.5780237458
 20
-301.1682922696
 10
392.9408543663
 20
-300.8501180224
 10
397.3296831631
 20
-300.690716356
 10
401.7271894341
 20
-300.690716356
 10
406.1160182309
 20
-300.8501180224
 10
410.4788488514
 20
-301.1682922696
 10
414.7984631964
 20
-301.6439834093
 10
419.0578137214
 20
-302.2753141059
 10
423.2400907158
 20
-303.0597927855
 10
427.328788643
 20
-303.9943234691
 10
431.3077712804
 20
-305.0752179912
 10
435.1613354011
 20
-306.2982105548
 10
438.8742727483
 20
-307.658474567
 10
442.4319300543
 20
-309.1506416872
 10
445.8202668713
 20
-310.7688230135
 10
449.0259109817
 20
-312.5066323235
 10
452.0362111727
 20
-314.3572112778
 10
454.8392871649
 20
-316.3132564866
 10
457.4240764978
 20
-318.3670483332
 10
459.7803781889
 20
-320.5104814395
 10
461.8988929918
 20
-322.7350966541
 10
463.7712600965
 20
-325.0321144372
 10
465.3900901254
 20
-327.3924695091
 10
466.748994296
 20
-329.8068466265
 10
467.8426096343
 20
-332.265717346
 10
468.6666201403
 20
-334.7593776283
 10
469.2177738208
 20
-337.2779861355
 10
469.4938955242
 20
-339.8116030703
 10
469.4938955242
 20
-342.3502294043
 10
469.2177738208
 20
-344.8838463392
 10
468.6666201403
 20
-347.4024548463
 10
467.8426096343
 20
-349.8961151286
 10
466.748994296
 20
-352.3549858482
 10
465.3900901254
 20
-354.7693629656
 10
463.7712600965
 20
-357.1297180374
 10
461.8988929918
 20
-359.4267358206
 10
459.7803781889
 20
-361.6513510352
 10
457.4240764978
 20
-363.7947841414
 10
454.8392871649
 20
-365.848575988
 10
452.0362111727
 20
-367.8046211969
 10
449.0259109817
 20
-369.6552001511
 10
445.8202668713
 20
-371.3930094611
 10
442.4319300543
 20
-373.0111907874
 10
438.8742727483
 20
-374.5033579077
 10
435.1613354011
 20
-375.8636219199
 10
431.3077712804
 20
-377.0866144835
 10
427.328788643
 20
-378.1675090055
 10
423.2400907158
 20
-379.1020396892
 10
419.0578137214
 20
-379.8865183688
 10
414.7984631964
 20
-380.5178490653
 10
410.4788488514
 20
-380.993540205
 10
406.1160182309
 20
-381.3117144523
 10
401.7271894341
 20
-381.4711161187
 10
397.3296831631
 20
-381.4711161187
 10
392.9408543663
 20
-381.3117144523
 10
388.5780237458
 20
-380.993540205
 10
384.2584094009
 20
-380.5178490653
 10
379.9990588759
 20
-379.8865183688
 10
375.8167818814
 20
-379.1020396892
 10
371.7280839542
 20
-378.1675090055
 10
367.7491013168
 20
-377.0866144835
 10
363.8955371961
 20
-375.8636219199
 10
360.182599849
 20
-374.5033579077
 10
356.6249425429
 20
-373.0111907874
 10
353.236605726
 20
-371.3930094611
 10
350.0309616156
 20
-369.6552001511
 10
347.0206614245
 20
-367.8046211969
 10
344.2175854323
 20
-365.848575988
 10
341.6327960994
 20
-363.7947841414
 10
339.2764944083
 20
-361.6513510352
 10
337.1579796054
 20
-359.4267358206
 10
335.2856125007
 20
-357.1297180374
 10
333.6667824718
 20
-354.7693629656
 10
332.3078783012
 20
-352.3549858482
 10
331.2142629629
 20
-349.8961151286
 10
330.3902524569
 20
-347.4024548463
 10
329.8390987764
 20
-344.8838463392
 10
329.562977073
 20
-342.3502294043
 10
329.562977073
 20
-339.8116030703
 10
329.8390987764
 20
-337.2779861355
 10
330.390252457
 20
-334.7593776283
 10
331.2142629629
 20
-332.265717346
 10
332.3078783012
 20
-329.8068466265
 10
333.6667824718
 20
-327.3924695091
 10
335.2856125007
 20
-325.0321144372
 10
337.1579796054
 20
-322.7350966541
 10
339.2764944083
 20
-320.5104814395
 10
341.6327960994
 20
-318.3670483332
 10
344.2175854323
 20
-316.3132564866
 10
347.0206614245
 20
-314.3572112778
 10
350.0309616156
 20
-312.5066323235
  0
LWPOLYLINE
  5
BA
330
1F
100
AcDbEntity
  8
0
  6
Continuous
 62
     7
370
    25
100
AcDbPolyline
 90
       92
 70
   128
 43
0.0
 10
359.0112177366
 20
-317.6908238336
 10
356.3124299589
 20
-319.3602652973
 10
353.8195861318
 20
-321.1332155543
 10
351.5445657915
 20
-323.0012256891
 10
349.4982104459
 20
-324.9553937829
 10
347.6902719101
 20
-326.9864073347
 10
346.1293658346
 20
-329.08458764
 10
344.8229306477
 20
-331.2399359141
 10
343.7771921079
 20
-333.4421809411
 10
342.9971336357
 20
-335.6808280204
 10
342.4864725649
 20
-337.9452089793
 10
342.247642428
 20
-340.2245330112
 10
342.2817813595
 20
-342.5079380992
 10
342.5887266717
 20
-344.7845427781
 10
343.1670156305
 20
-347.04349799
 10
344.0138924257
 20
-349.2740387845
 10
345.1253213036
 20
-351.4655356189
 10
346.4960057994
 20
-353.6075450128
 10
348.1194139775
 20
-355.6898593161
 10
349.9878095584
 20
-357.7025553526
 10
352.0922887865
 20
-359.6360417094
 10
354.4228228597
 20
-361.4811044433
 10
356.968305722
 20
-363.2289509902
 10
359.7166069882
 20
-364.8712520653
 10
362.6546297513
 20
-366.4001813562
 10
365.7683729948
 20
-367.8084528184
 10
369.0429983143
 20
-369.0893553972
 10
372.4629006287
 20
-370.2367850084
 10
376.0117825462
 20
-371.2452736275
 10
379.6727320282
 20
-372.1100153467
 10
383.4283029833
 20
-372.8268892782
 10
387.2605984056
 20
-373.392479191
 10
391.1513556622
 20
-373.8040897918
 10
395.082033523
 20
-374.0597595686
 10
399.0339005178
 20
-374.1582701384
 10
402.9881242009
 20
-374.0991520535
 10
406.9258608956
 20
-373.8826870385
 10
410.8283454933
 20
-373.5099066478
 10
414.6769808777
 20
-372.9825873497
 10
418.4534265486
 20
-372.3032420609
 10
422.1396860226
 20
-371.4751081709
 10
425.7181925946
 20
-370.5021321149
 10
429.171893051
 20
-369.3889505669
 10
432.4843289364
 20
-368.1408683439
 10
435.6397149854
 20
-366.7638331261
 10
438.6230143465
 20
-365.2644071134
 10
441.4200102396
 20
-363.6497357536
 10
444.0173737056
 20
-361.9275136909
 10
446.4027271246
 20
-360.105948098
 10
448.5647032015
 20
-358.1937195642
 10
450.4929991355
 20
-356.1999407295
 10
452.1784257185
 20
-354.1341128579
 10
453.6129511253
 20
-352.00608056
 10
454.7897391889
 20
-349.8259848788
 10
455.7031819784
 20
-347.6042149631
 10
456.3489265229
 20
-345.3513585582
 10
456.7238955556
 20
-343.078151551
 10
456.8263021783
 20
-340.7954268079
 10
456.6556583767
 20
-338.514062552
 10
456.2127773463
 20
-336.2449305228
 10
455.4997696169
 20
-333.9988441678
 10
454.5200329951
 20
-331.7865071115
 10
453.278236372
 20
-329.6184621472
 10
451.780297474
 20
-327.5050409967
 10
450.0333546621
 20
-325.4563150741
 10
448.0457329144
 20
-323.4820474914
 10
445.8269041537
 20
-321.5916465328
 10
443.3874421094
 20
-319.7941208198
 10
440.7389719292
 20
-318.0980363808
 10
437.8941147795
 20
-316.5114758307
 10
434.8664277002
 20
-315.041999853
 10
431.6703389991
 20
-313.6966111699
 10
428.3210794942
 20
-312.4817211712
 10
424.8346099325
 20
-311.403119361
 10
421.227544929
 20
-310.4659457681
 10
417.5170737911
 20
-309.6746664515
 10
413.7208786036
 20
-309.0330522175
 10
409.8570499653
 20
-308.54416065
 10
405.9440007793
 20
-308.21032154
 10
402.0003785069
 20
-308.033125783
 10
398.0449763042
 20
-308.0134177973
 10
394.0966434639
 20
-308.1512915006
 10
390.1741955901
 20
-308.4460898618
 10
386.2963249331
 20
-308.8964080326
 10
382.4815113127
 20
-309.5001000416
 10
378.747934053
 20
-310.2542890217
 10
375.1133853498
 20
-311.1553809188
 10
371.595185483
 20
-312.1990816197
 10
368.2101002771
 20
-313.3804174153
 10
364.9742612045
 20
-314.6937587025
 10
361.9030885122
 20
-316.132846812
 10
359.0112177366
 20
-317.6908238336
  0
ELLIPSE
  5
BB
330
1F
100
AcDbEntity
  8
0
  6
Continuous
 62
     7
370
    25
100
AcDbEllipse
 10
399.5284362986
 20
-219.432869408
 30
0.0
 11
69.79405090625664
 21
-13.06518222038568
 31
0.0
210
0.0
220
0.0
230
1.0
 40
0.4106849769
 41
0.0767277489784159
 42
3.218320402568243
  0
LWPOLYLINE
  5
BC
330
1F
100
AcDbEntity
  8
0
  6
Continuous
 62
     7
370
    25
100
AcDbPolyline
 90
       41
 70
   128
 43
0.0
 10
402.7032577084
 20
-55.1012173176
 10
405.4925125049
 20
-55.3982702048
 10
408.4661033063
 20
-55.8069204042
 10
411.6122947082
 20
-56.3255551602
 10
414.9186701306
 20
-56.9521276584
 10
418.3721808202
 20
-57.6841651033
 10
421.959197348
 20
-58.5187784776
 10
425.6655633986
 20
-59.4526739436
 10
429.4766516385
 20
-60.4821658425
 10
433.3774214434
 20
-61.6031912402
 10
437.3524782571
 20
-62.8113259616
 10
441.3861343463
 20
-64.1018020508
 10
445.4624707134
 20
-65.4695265883
 10
449.5653999208
 20
-66.9091017902
 10
453.6787295815
 20
-68.4148463108
 10
457.7862262626
 20
-69.9808176645
 10
461.8716795511
 20
-71.6008356777
 10
465.9189660294
 20
-73.2685068795
 10
469.9121129068
 20
-74.9772497335
 10
473.8353610569
 20
-76.7203206123
 10
477.6732272115
 20
-78.4908404114
 10
481.4105650664
 20
-80.2818216982
 10
485.0326250564
 20
-82.0861962877
 10
488.5251125655
 20
-83.8968431377
 10
491.8742443411
 20
-85.7066164523
 10
495.0668028902
 20
-87.5083738831
 10
498.0901886426
 20
-89.2950047165
 10
500.9324696761
 20
-91.0594579371
 10
503.582428806
 20
-92.7947700539
 10
506.0296078541
 20
-94.4940925829
 10
508.2643489229
 20
-96.1507190743
 10
510.2778325103
 20
-97.7581115804
 10
512.0621123164
 20
-99.3099264571
 10
513.610146604
 20
-100.8000394001
 10
514.915825989
 20
-102.2225696144
 10
515.9739975514
 20
-103.5719030232
 10
516.7804851714
 20
-104.8427144239
 10
517.3321060109
 20
-106.0299885045
 10
517.6266830744
 20
-107.1290396367
 10
517.6630538009
 20
-108.1355303676
 10
517.4608887452
 20
-108.9956906597
  0
LWPOLYLINE
  5
BD
330
1F
100
AcDbEntity
  8
0
  6
Continuous
 62
     7
370
    25
100
AcDbPolyline
 90
       12
 70
   128
 43
0.0
 10
386.9405760377
 20
-58.355311803
 10
386.9603901314
 20
-58.3055139244
 10
387.4398431061
 20
-57.4956795032
 10
388.1748777243
 20
-56.7891648779
 10
389.1625931404
 20
-56.188758339
 10
390.3990912926
 20
-55.6968294168
 10
391.8794922878
 20
-55.31531953
 10
393.5979536595
 20
-55.0457343239
 10
395.5476934259
 20
-54.889137728
 10
397.7210168547
 20
-54.8461477577
 10
400.1093468313
 20
-54.9169340746
 10
402.7032577084
 20
-55.1012173176
  0
ENDSEC
  0
SECTION
  2
OBJECTS
  0
DICTIONARY
  5
C
330
0
100
AcDbDictionary
281
     1
  3
ACAD_GROUP
350
D
  3
ACAD_LAYOUT
350
1A
  3
ACAD_MLINESTYLE
350
17
  3
ACAD_PLOTSETTINGS
350
19
  3
ACAD_PLOTSTYLENAME
350
E
  3
ACAD_SCALELIST
350
47
  3
DWGPROPS
350
BE
  0
DICTIONARY
  5
D
102
{ACAD_REACTORS
330
C
102
}
330
C
100
AcDbDictionary
281
     1
  0
DICTIONARY
  5
1A
102
{ACAD_REACTORS
330
C
102
}
330
C
100
AcDbDictionary
281
     1
  3
Layout1
350
1E
  3
Layout2
350
26
  3
Model
350
22
  0
DICTIONARY
  5
17
102
{ACAD_REACTORS
330
C
102
}
330
C
100
AcDbDictionary
281
     1
  3
Standard
350
18
  0
DICTIONARY
  5
19
102
{ACAD_REACTORS
330
C
102
}
330
C
100
AcDbDictionary
281
     1
  0
ACDBDICTIONARYWDFLT
  5
E
102
{ACAD_REACTORS
330
C
102
}
330
C
100
AcDbDictionary
281
     1
  3
Normal
350
F
100
AcDbDictionaryWithDefault
340
F
  0
DICTIONARY
  5
47
102
{ACAD_REACTORS
330
C
102
}
330
C
100
AcDbDictionary
281
     1
  3
A0
350
48
  3
A1
350
49
  3
A2
350
4A
  3
A3
350
4B
  3
A4
350
4C
  3
A5
350
4D
  3
A6
350
4E
  3
A7
350
4F
  3
A8
350
50
  3
A9
350
51
  3
B0
350
52
  3
B1
350
53
  3
B2
350
54
  3
B3
350
55
  3
B4
350
56
  3
B5
350
57
  3
B6
350
58
  3
B7
350
59
  3
B8
350
5A
  3
B9
350
5B
  3
C0
350
5C
  3
C1
350
5D
  3
C2
350
5E
  3
C3
350
5F
  3
C4
350
60
  3
C5
350
61
  3
C6
350
62
  3
C7
350
63
  3
C8
350
64
  3
C9
350
65
  3
D0
350
66
  3
D1
350
67
  3
D2
350
68
  0
XRECORD
  5
BE
102
{ACAD_REACTORS
330
C
102
}
330
C
100
AcDbXrecord
280
     1
  1
DWGPROPS COOKIE
  2

  3

  4

  6

  7

  8
b.kav
  9

300
=
301
=
302
=
303
=
304
=
305
=
306
=
307
=
308
=
309
=
 40
0.0
 41
2460682.394552002
 42
2460682.39455213
  1

 90
        0
  0
LAYOUT
  5
1E
102
{ACAD_REACTORS
330
1A
102
}
330
1A
100
AcDbPlotSettings
  1

  2
none_device
  4

  6

 40
0.0
 41
0.0
 42
0.0
 43
0.0
 44
0.0
 45
0.0
 46
0.0
 47
0.0
 48
0.0
 49
0.0
140
0.0
141
0.0
142
1.0
143
1.0
 70
   688
 72
     1
 73
     0
 74
     5
  7

 75
    16
147
1.0
148
0.0
149
0.0
100
AcDbLayout
  1
Layout1
 70
     1
 71
     1
 10
0.0
 20
0.0
 11
420.0
 21
297.0
 12
0.0
 22
0.0
 32
0.0
 14
1.0000000000E+20
 24
1.0000000000E+20
 34
1.0000000000E+20
 15
-1.0000000000E+20
 25
-1.0000000000E+20
 35
-1.0000000000E+20
146
0.0
 13
0.0
 23
0.0
 33
0.0
 16
1.0
 26
0.0
 36
0.0
 17
0.0
 27
1.0
 37
0.0
 76
     0
330
1B
  0
LAYOUT
  5
26
102
{ACAD_REACTORS
330
1A
102
}
330
1A
100
AcDbPlotSettings
  1

  2
none_device
  4

  6

 40
0.0
 41
0.0
 42
0.0
 43
0.0
 44
0.0
 45
0.0
 46
0.0
 47
0.0
 48
0.0
 49
0.0
140
0.0
141
0.0
142
1.0
143
1.0
 70
   688
 72
     1
 73
     0
 74
     5
  7

 75
    16
147
1.0
148
0.0
149
0.0
100
AcDbLayout
  1
Layout2
 70
     1
 71
     2
 10
0.0
 20
0.0
 11
0.0
 21
0.0
 12
0.0
 22
0.0
 32
0.0
 14
0.0
 24
0.0
 34
0.0
 15
0.0
 25
0.0
 35
0.0
146
0.0
 13
0.0
 23
0.0
 33
0.0
 16
1.0
 26
0.0
 36
0.0
 17
0.0
 27
1.0
 37
0.0
 76
     0
330
23
  0
LAYOUT
  5
22
102
{ACAD_REACTORS
330
1A
102
}
330
1A
100
AcDbPlotSettings
  1

  2
none_device
  4
Letter_(8.50_x_11.00_Inches)
  6

 40
6.35
 41
6.35
 42
6.35000508
 43
6.35000508
 44
215.9
 45
279.4
 46
0.0
 47
0.0
 48
0.0
 49
0.0
140
0.0
141
0.0
142
1.0
143
1.0
 70
  1712
 72
     1
 73
     0
 74
     0
  7

 75
     0
147
1.0
148
0.0
149
0.0
100
AcDbLayout
  1
Model
 70
     1
 71
     0
 10
0.0
 20
0.0
 11
279.4
 21
215.9
 12
0.0
 22
0.0
 32
0.0
 14
0.0
 24
0.0
 34
0.0
 15
279.4
 25
215.9
 35
0.0
146
0.0
 13
0.0
 23
0.0
 33
0.0
 16
1.0
 26
0.0
 36
0.0
 17
0.0
 27
1.0
 37
0.0
 76
     0
330
1F
331
29
  0
MLINESTYLE
  5
18
102
{ACAD_REACTORS
330
17
102
}
330
17
100
AcDbMlineStyle
  2
Standard
 70
     0
  3

 62
   256
 51
90.0
 52
90.0
 71
     2
 49
0.5
 62
   256
  6
BYLAYER
 49
-0.5
 62
   256
  6
BYLAYER
  0
ACDBPLACEHOLDER
  5
F
102
{ACAD_REACTORS
330
E
102
}
330
E
  0
SCALE
  5
48
102
{ACAD_REACTORS
330
47
102
}
330
47
100
AcDbScale
 70
     0
300
1:1
140
1.0
141
1.0
290
     1
  0
SCALE
  5
49
102
{ACAD_REACTORS
330
47
102
}
330
47
100
AcDbScale
 70
     0
300
1:2
140
1.0
141
2.0
290
     0
  0
SCALE
  5
4A
102
{ACAD_REACTORS
330
47
102
}
330
47
100
AcDbScale
 70
     0
300
1:4
140
1.0
141
4.0
290
     0
  0
SCALE
  5
4B
102
{ACAD_REACTORS
330
47
102
}
330
47
100
AcDbScale
 70
     0
300
1:5
140
1.0
141
5.0
290
     0
  0
SCALE
  5
4C
102
{ACAD_REACTORS
330
47
102
}
330
47
100
AcDbScale
 70
     0
300
1:8
140
1.0
141
8.0
290
     0
  0
SCALE
  5
4D
102
{ACAD_REACTORS
330
47
102
}
330
47
100
AcDbScale
 70
     0
300
1:10
140
1.0
141
10.0
290
     0
  0
SCALE
  5
4E
102
{ACAD_REACTORS
330
47
102
}
330
47
100
AcDbScale
 70
     0
300
1:16
140
1.0
141
16.0
290
     0
  0
SCALE
  5
4F
102
{ACAD_REACTORS
330
47
102
}
330
47
100
AcDbScale
 70
     0
300
1:20
140
1.0
141
20.0
290
     0
  0
SCALE
  5
50
102
{ACAD_REACTORS
330
47
102
}
330
47
100
AcDbScale
 70
     0
300
1:30
140
1.0
141
30.0
290
     0
  0
SCALE
  5
51
102
{ACAD_REACTORS
330
47
102
}
330
47
100
AcDbScale
 70
     0
300
1:40
140
1.0
141
40.0
290
     0
  0
SCALE
  5
52
102
{ACAD_REACTORS
330
47
102
}
330
47
100
AcDbScale
 70
     0
300
1:50
140
1.0
141
50.0
290
     0
  0
SCALE
  5
53
102
{ACAD_REACTORS
330
47
102
}
330
47
100
AcDbScale
 70
     0
300
1:100
140
1.0
141
100.0
290
     0
  0
SCALE
  5
54
102
{ACAD_REACTORS
330
47
102
}
330
47
100
AcDbScale
 70
     0
300
2:1
140
2.0
141
1.0
290
     0
  0
SCALE
  5
55
102
{ACAD_REACTORS
330
47
102
}
330
47
100
AcDbScale
 70
     0
300
4:1
140
4.0
141
1.0
290
     0
  0
SCALE
  5
56
102
{ACAD_REACTORS
330
47
102
}
330
47
100
AcDbScale
 70
     0
300
8:1
140
8.0
141
1.0
290
     0
  0
SCALE
  5
57
102
{ACAD_REACTORS
330
47
102
}
330
47
100
AcDbScale
 70
     0
300
10:1
140
10.0
141
1.0
290
     0
  0
SCALE
  5
58
102
{ACAD_REACTORS
330
47
102
}
330
47
100
AcDbScale
 70
     0
300
100:1
140
100.0
141
1.0
290
     0
  0
SCALE
  5
59
102
{ACAD_REACTORS
330
47
102
}
330
47
100
AcDbScale
 70
     0
300
1/128" = 1'-0"
140
0.0078125
141
12.0
290
     0
  0
SCALE
  5
5A
102
{ACAD_REACTORS
330
47
102
}
330
47
100
AcDbScale
 70
     0
300
1/64" = 1'-0"
140
0.015625
141
12.0
290
     0
  0
SCALE
  5
5B
102
{ACAD_REACTORS
330
47
102
}
330
47
100
AcDbScale
 70
     0
300
1/32" = 1'-0"
140
0.03125
141
12.0
290
     0
  0
SCALE
  5
5C
102
{ACAD_REACTORS
330
47
102
}
330
47
100
AcDbScale
 70
     0
300
1/16" = 1'-0"
140
0.0625
141
12.0
290
     0
  0
SCALE
  5
5D
102
{ACAD_REACTORS
330
47
102
}
330
47
100
AcDbScale
 70
     0
300
3/32" = 1'-0"
140
0.09375
141
12.0
290
     0
  0
SCALE
  5
5E
102
{ACAD_REACTORS
330
47
102
}
330
47
100
AcDbScale
 70
     0
300
1/8" = 1'-0"
140
0.125
141
12.0
290
     0
  0
SCALE
  5
5F
102
{ACAD_REACTORS
330
47
102
}
330
47
100
AcDbScale
 70
     0
300
3/16" = 1'-0"
140
0.1875
141
12.0
290
     0
  0
SCALE
  5
60
102
{ACAD_REACTORS
330
47
102
}
330
47
100
AcDbScale
 70
     0
300
1/4" = 1'-0"
140
0.25
141
12.0
290
     0
  0
SCALE
  5
61
102
{ACAD_REACTORS
330
47
102
}
330
47
100
AcDbScale
 70
     0
300
3/8" = 1'-0"
140
0.375
141
12.0
290
     0
  0
SCALE
  5
62
102
{ACAD_REACTORS
330
47
102
}
330
47
100
AcDbScale
 70
     0
300
1/2" = 1'-0"
140
0.5
141
12.0
290
     0
  0
SCALE
  5
63
102
{ACAD_REACTORS
330
47
102
}
330
47
100
AcDbScale
 70
     0
300
3/4" = 1'-0"
140
0.75
141
12.0
290
     0
  0
SCALE
  5
64
102
{ACAD_REACTORS
330
47
102
}
330
47
100
AcDbScale
 70
     0
300
1" = 1'-0"
140
1.0
141
12.0
290
     0
  0
SCALE
  5
65
102
{ACAD_REACTORS
330
47
102
}
330
47
100
AcDbScale
 70
     0
300
1-1/2" = 1'-0"
140
1.5
141
12.0
290
     0
  0
SCALE
  5
66
102
{ACAD_REACTORS
330
47
102
}
330
47
100
AcDbScale
 70
     0
300
3" = 1'-0"
140
3.0
141
12.0
290
     0
  0
SCALE
  5
67
102
{ACAD_REACTORS
330
47
102
}
330
47
100
AcDbScale
 70
     0
300
6" = 1'-0"
140
6.0
141
12.0
290
     0
  0
SCALE
  5
68
102
{ACAD_REACTORS
330
47
102
}
330
47
100
AcDbScale
 70
     0
300
1'-0" = 1'-0"
140
12.0
141
12.0
290
     0
  0
ENDSEC
  0
EOF
